Lyrics & Knowledge Personal Pages Record Shop Auction Links Radio & Media Kids Membership Help
The Mudcat Cafesj



User Name Thread Name Subject Posted
Aidan Crossey Tune Req: Mandolin Tab for 'Horo Johnny' (10) RE: Tune Req: Mandolin Tab for 'Horo Johnny' 01 Sep 02


Áine ...

Don't sweat it!

Here's tab for the tune if played in A dorian.

And an abc of the tune as well (from which you'll be able to get the sheet music no doubt).

Print in Courier 8 pitch for best effect. If the formatting is all over the place when it hits the Mudcat boards, I can always e-mail the original to you!

Aidan

X:1
T:ho ro johnny
M:2/4
R:song
L:1/8
Q:180
C:Trad
K:Ador

| Ae e/d/B/d/|eg G G/A/|B d/e/ d/B/G/B/|de A B/d/|
ee e/d/B/d/|ea g f/g/|a/g/e/d/ e/d/c/B/|A/G/E/G/ A2| |

Ho Ro Johnny
-----|-----0---0-------|-0--3------------|-------0---------|-----0-----------|
-----|-0---------5-2-5-|---------------0-|-2---5---5-2---2-|-5-------0---2-5-|
-----|-----------------|---------5---5---|-------------5---|-----------------|
-----|-----------------|-----------------|-----------------|-----------------|
|__ |__ |_|_|_| |__ |__ |__ |_| |__ |_| |_|_|_| |__ |__ |__ |_|


|-0---0---0-------|-0---5---3---2-3-|-5-3-0---0-------|-----------------||
|-----------5-2-5-|-----------------|-------5---5-3-2-|-0-------0-------o|
|-----------------|-----------------|-----------------|---5-2-5---------o|
|-----------------|-----------------|-----------------|-----------------||
|__ |__ |_|_|_| |__ |__ |__ |_| |_|_|_| |_|_|_| |_|_|_| |______



Post to this Thread -

Back to the Main Forum Page

By clicking on the User Name, you will requery the forum for that user. You will see everything that he or she has posted with that Mudcat name.

By clicking on the Thread Name, you will be sent to the Forum on that thread as if you selected it from the main Mudcat Forum page.

By clicking on the Subject, you will also go to the thread as if you selected it from the original Forum page, but also go directly to that particular message.

By clicking on the Date (Posted), you will dig out every message posted that day.

Try it all, you will see.