Lyrics & Knowledge Personal Pages Record Shop Auction Links Radio & Media Kids Membership Help
The Mudcat Cafemuddy

Post to this Thread - Sort Descending - Printer Friendly - Home


Tune Req: Turlow Carolan's Draught

MudGuard 24 Jul 02 - 02:20 PM
Sorcha 24 Jul 02 - 02:32 PM
Sorcha 24 Jul 02 - 02:33 PM
GUEST,Bill Kennedy 24 Jul 02 - 02:36 PM
GUEST,Bill Kennedy 24 Jul 02 - 02:38 PM
MudGuard 24 Jul 02 - 02:49 PM
GUEST,Bill Kennedy 24 Jul 02 - 04:03 PM
GUEST,Bill Kennedy 24 Jul 02 - 04:11 PM
GUEST,Bill Kennedy 24 Jul 02 - 04:12 PM
GUEST,Bill Kennedy 24 Jul 02 - 04:17 PM
MudGuard 24 Jul 02 - 05:07 PM
GUEST,Philippa 24 Jul 02 - 05:17 PM
MudGuard 24 Jul 02 - 05:23 PM
artbrooks 24 Jul 02 - 06:53 PM
Mr Happy 07 Jul 09 - 10:33 AM
bubblyrat 07 Jul 09 - 06:31 PM
Mr Happy 08 Jul 09 - 06:52 AM
bubblyrat 08 Jul 09 - 07:03 AM
Mr Happy 08 Jul 09 - 08:21 AM
GUEST,Black belt caterpillar wrestler 08 Jul 09 - 08:28 AM
Jim Carroll 08 Jul 09 - 09:02 AM
Paul Burke 08 Jul 09 - 01:02 PM
Mr Happy 09 Jul 09 - 11:02 AM
Share Thread
more
Lyrics & Knowledge Search [Advanced]
DT  Forum
Sort (Forum) by:relevance date
DT Lyrics:









Subject: Tune Req: Turlow Carolan's Drawed
From: MudGuard
Date: 24 Jul 02 - 02:20 PM

Today I heard a tune which was announced as something like
"Turlow Carolan's Drawed"
The PA system was not too good and it might be something spelled quite differently
- not being a native English speaker didn't help at all ;-)

I liked the tune very much.
Does anyone know it - or even better have it as ABC?

TIA

MudGuard


Post - Top - Home - Printer Friendly - Translate

Subject: RE: Tune Req: Turlow Carolan's Drawed
From: Sorcha
Date: 24 Jul 02 - 02:32 PM

Maybe First word is Turlough--Irish bard.


Post - Top - Home - Printer Friendly - Translate

Subject: RE: Tune Req: Turlow Carolan's Drawed
From: Sorcha
Date: 24 Jul 02 - 02:33 PM

(oops--Carolan's Draught)And it is a pretty tune.


Post - Top - Home - Printer Friendly - Translate

Subject: RE: Tune Req: Turlow Carolan's Drawed
From: GUEST,Bill Kennedy
Date: 24 Jul 02 - 02:36 PM

'Turlough O'Carolan's Draught', better known as 'O'Carolan's Draught', should be easy to find, I'm sure it;s on the web somewhere in a midi file, or soemthing you can listen to


Post - Top - Home - Printer Friendly - Translate

Subject: RE: Tune Req: Turlow Carolan's Drawed
From: GUEST,Bill Kennedy
Date: 24 Jul 02 - 02:38 PM

oops, Sorcha got there first!


Post - Top - Home - Printer Friendly - Translate

Subject: RE: Tune Req: Turlow Carolan's Drawed
From: MudGuard
Date: 24 Jul 02 - 02:49 PM

Thanks a lot.
A Mudcat-typical fast and good response to a request!

I might have found it myself - but my spelling was too far off...

MudGuard


Post - Top - Home - Printer Friendly - Translate

Subject: RE: Tune Req: Turlow Carolan's Drawed
From: GUEST,Bill Kennedy
Date: 24 Jul 02 - 04:03 PM

Mudguard, try the old Irish spelling, Toirdhealbhach O'Cearbhallain !! That's right, 'turlow o caroline'!!

Here is the mandolin tab which you can use for fiddle, etc., from this web site, in case it doesn't copy correctly

http://www.mandolincafe.com/tab/cdraught.txt

O'Carolan's Draught Turlough O'Carolan Arranged by Scott Tichenor TablEdited by Karen Josephson Tuning : G D A E Time Signature: 4/4

F | | | C | | | Dm | | | |----------------|--------0-------|1-------0-------| |--------0---1---|3---5-------3---|0-----------5---| |3-----5---------|2---------------|0---------------| |2---------------|0---------------|----------------|

Am | | | Bb | | | Am | | | |----------------|----------------|----------------| |3-------0-------|5-------1-------|3-------0-------| |2-----------3---|3---------------|2---------------| |2---------------|3---------------|2---------------|

Bb | | | C7 | | | F | | | |----------------|----------------|----------------| |1---3-1-0---1---|----1---0-------|--------0---1---| |0---------------|5-----------5---|3---5-----------| |0---------------|----------------|2---------------|

C | | | Dm | | | G7 | | | |--------0-------|1---0-1-0-------|----5---3---1---| |3---5-------3---|0-----------5-3-|2---------------| |2---------------|0---------------|0---------------| |0---------------|----------------|0---------------|

Dm | | | G | | | C | | | |1---0-----------|----------------|----------------| |0-------5---3---|--------2-------|3---------------| |0---------------|5---------------|2---------------| |----------------|----------------|0---------------| ______________ ______________ 1.C7 | | | 2.C | | | Gm | | | |----------------|--------0-----1-|3---0---1---3---| |3--------------*|3---------------|1---------------| |2--------------*|2---------------|0---------------| |3---------------|0---------------|----------------|

F | | | Bb | | | Dm | | | |5---3---1---0---|--0-1---0-------|----------------| |3---------------|5-----------5---|5---3---1---0---| |3---------------|----------------|----------------| |----------------|----------------|----------------|

Bb | | | | | | | F | | | |------------0---|1-----0-1---3---|5---3---1---0---| |5-----3-5-------|0---------------|3---------------| |3---------------|0---------------|3---------------| |----------------|----------------|----------------|

Bb | | | F | | | C | | | |----0---1---3---|5-------1---5---|3-------0---3---| |5---------------|3---------------|1---------------| |3---------------|3---------------|2---------------| |3---------------|----------------|----------------|

Dm | | | C | | | Bb | | | |1-----------1---|0---------------|------------0---| |0-------5-------|----5---3-------|5---------------| |0---------------|----------------|3---------------| |----------------|----------------|3---------------|

| | | | Gm | | | | | | | |1---0-----------|----------------|------------0---| |--------5---3---|5---------------|5---------------| |----------------|3---------------|3---------------| |----------------|3---------------|3---------------|

F | | | | | | | Bb | | | |1---0-----------|----------------|----------------| |--------5---3---|1---0-----------|5-------3-------| |----------------|--------5---3---|3---------------| |----------------|----------------|3---------------|

Am | | | Bb | | | | | | | |----------------|----------------|----------------| |3-------0-------|5---1---3---0---|1-------0-------| |2-----------3---|3-------2-------|0---5-------3---| |2---------------|----------------|----------------|

C | | | | | | | Bb | | | |----------------|----------------|----------------| |----------------|----------------|----------------| |2---3---5---2---|----0---2-------|0---2---3---0---| |0---------------|5-----------5---|3---------------|

C | | | Dm | | | C | | | |----------------|----------------|----------------| |----------------|--------0-------|----0---1-------| |2---3---5---2---|3---5-------3---|5-----------5---| |0---------------|2---------------|3---------------|

F | | | Bb | C | | | | | |--------1-------|5---353-1---0---|1---------------| |3-------3-------|----------------|----3---1---0---| |----------------|----------------|----------------| |----------------|----------------|----------------|

F | | | |----------------| |----------------| |3---------------| |2---------------|


Post - Top - Home - Printer Friendly - Translate

Subject: RE: Tune Req: Turlow Carolan's Drawed
From: GUEST,Bill Kennedy
Date: 24 Jul 02 - 04:11 PM

sorry, what a mess, better if you go to the site and copy it yourself, don't know how the line breaks would work with this but I'll try again.

O'Carolan's Draught
Turlough O'Carolan
Arranged by Scott Tichenor
TablEdited by Karen Josephson
Tuning : G D A E Time Signature: 4/4

F | | | C | | | Dm | | |
|----------------|--------0-------|1-------0-------|
|--------0---1---|3---5-------3---|0-----------5---|
|3-----5---------|2---------------|0---------------|
|2---------------|0---------------|----------------|

Am | | | Bb | | | Am | | |
|----------------|----------------|----------------|
|3-------0-------|5-------1-------|3-------0-------|
|2-----------3---|3---------------|2---------------|
|2---------------|3---------------|2---------------|

Bb | | | C7 | | | F | | |
|----------------|----------------|----------------|
|1---3-1-0---1---|----1---0-------|--------0---1---|
|0---------------|5-----------5---|3---5-----------|
|0---------------|----------------|2---------------|

C | | | Dm | | | G7 | | |
|--------0-------|1---0-1-0-------|----5---3---1---|
|3---5-------3---|0-----------5-3-|2---------------|
|2---------------|0---------------|0---------------|
|0---------------|----------------|0---------------|

Dm | | | G | | | C | | |
|1---0-----------|----------------|----------------|
|0-------5---3---|--------2-------|3---------------|
|0---------------|5---------------|2---------------|
|----------------|----------------|0---------------|

1.C7 | | | 2.C | | | Gm | | |
|----------------|--------0-----1-|3---0---1---3---|
|3--------------*|3---------------|1---------------|
|2--------------*|2---------------|0---------------|
|3---------------|0---------------|----------------|

F | | | Bb | | | Dm | | |
|5---3---1---0---|--0-1---0-------|----------------|
|3---------------|5-----------5---|5---3---1---0---|
|3---------------|----------------|----------------|
|----------------|----------------|----------------|

Bb | | | | | | | F | | |
|------------0---|1-----0-1---3---|5---3---1---0---|
|5-----3-5-------|0---------------|3---------------|
|3---------------|0---------------|3---------------|
|----------------|----------------|----------------|

Bb | | | F | | | C | | |
|----0---1---3---|5-------1---5---|3-------0---3---|
|5---------------|3---------------|1---------------|
|3---------------|3---------------|2---------------|
|3---------------|----------------|----------------|

Dm | | | C | | | Bb | | |
|1-----------1---|0---------------|------------0---|
|0-------5-------|----5---3-------|5---------------|
|0---------------|----------------|3---------------|
|----------------|----------------|3---------------|

| | | | Gm | | | | | | |
|1---0-----------|----------------|------------0---|
|--------5---3---|5---------------|5---------------|
|----------------|3---------------|3---------------|
|----------------|3---------------|3---------------|

F | | | | | | | Bb | | |
|1---0-----------|----------------|----------------|
|--------5---3---|1---0-----------|5-------3-------|
|----------------|--------5---3---|3---------------|
|----------------|----------------|3---------------|

Am | | | Bb | | | | | | |
|----------------|----------------|----------------|
|3-------0-------|5---1---3---0---|1-------0-------|
|2-----------3---|3-------2-------|0---5-------3---|
|2---------------|----------------|----------------|

C | | | | | | | Bb | | |
|----------------|----------------|----------------|
|----------------|----------------|----------------|
|2---3---5---2---|----0---2-------|0---2---3---0---|
|0---------------|5-----------5---|3---------------|

C | | | Dm | | | C | | |
|----------------|----------------|----------------|
|----------------|--------0-------|----0---1-------|
|2---3---5---2---|3---5-------3---|5-----------5---|
|0---------------|2---------------|3---------------|

F | | | Bb | C | | | | |
|--------1-------|5---353-1---0---|1---------------|
|3-------3-------|----------------|----3---1---0---|
|----------------|----------------|----------------|
|----------------|----------------|----------------|

F | | |
|----------------|
|----------------|
|3---------------|
|2---------------|


Post - Top - Home - Printer Friendly - Translate

Subject: RE: Tune Req: Turlow Carolan's Drawed
From: GUEST,Bill Kennedy
Date: 24 Jul 02 - 04:12 PM

well that's a little better, but the chords should be in their correct places, don't know how to fix it, but check out the web site


Post - Top - Home - Printer Friendly - Translate

Subject: RE: Tune Req: Turlow Carolan's Drawed
From: GUEST,Bill Kennedy
Date: 24 Jul 02 - 04:17 PM

well, four beats to a measure, the chord is on the first beat, except when carried over for another measure, as stroke (/) marks indicate


Post - Top - Home - Printer Friendly - Translate

Subject: RE: Tune Req: Turlow Carolan's Drawed
From: MudGuard
Date: 24 Jul 02 - 05:07 PM

Thanks Bill for going to all the trouble...

I found the tune following the link Sorcha gave.
And Mandolin tabs are no use to me, I only torture my neighbours by playing the tin whistle...

But maybe some mandolin player can use it...

MudGuard


Post - Top - Home - Printer Friendly - Translate

Subject: Tune Req: O'Carolan's Draught
From: GUEST,Philippa
Date: 24 Jul 02 - 05:17 PM

I just thought I'd add a subject heading with standard spelling.


Post - Top - Home - Printer Friendly - Translate

Subject: RE: Tune Req: Turlow Carolan's Drawed
From: MudGuard
Date: 24 Jul 02 - 05:23 PM

Good thinking, Philippa, this will make it easier to find the thread.

Sorry for my misspelling...

MudGuard


Post - Top - Home - Printer Friendly - Translate

Subject: RE: Tune Req: Turlow Carolan's Drawed
From: artbrooks
Date: 24 Jul 02 - 06:53 PM

There are a lot of O'Carolan things, including several midis for "O'Carolan's Draught",here.


Post - Top - Home - Printer Friendly - Translate

Subject: Carolan's Draught
From: Mr Happy
Date: 07 Jul 09 - 10:33 AM

We played it along with a bazouki-ist at a sesh in the Commercial, Clecky last weakend.

Nice rendition here http://www.youtube.com/watch?v=UcDgNKZDrB0


Post - Top - Home - Printer Friendly - Translate

Subject: RE: Tune Req: Turlow Carolan's Draught
From: bubblyrat
Date: 07 Jul 09 - 06:31 PM

Aha !! If you read the other " Carolan" thread above,you will see that it can be "Turlough O'Carolan's Draught", or " Carolan's Draught",as,without his first name,you drop the "O' ". Well, according to various learned Mudcatters,you do !! Tricky,but rather interesting !!


Post - Top - Home - Printer Friendly - Translate

Subject: RE: Tune Req: Turlow Carolan's Draught
From: Mr Happy
Date: 08 Jul 09 - 06:52 AM

I appreciate the existence of earlier discussions on the controversy of how Carolan's name be pronounced.

Seems to me, the name is Carolan, but since his first name was Turlough - pronounced 'Turlow' - both run together could produce the confusion of 'Turlow [O'] Carolan'. IMO


Post - Top - Home - Printer Friendly - Translate

Subject: RE: Tune Req: Turlow Carolan's Draught
From: bubblyrat
Date: 08 Jul 09 - 07:03 AM

I beg to differ,as one of the Irish-speaking (mustn't say Erse !) contributors to this discussion has already stated that Turlough is pronounced "Ter-luk",not "Ter -low"-----Cue "Dam Busters" music and da-da-da-da-da noises !!


Post - Top - Home - Printer Friendly - Translate

Subject: RE: Tune Req: Turlow Carolan's Draught
From: Mr Happy
Date: 08 Jul 09 - 08:21 AM

............so following that logic, 'The Boys of the Lough' are really 'The Boys of the Luck' ??


Post - Top - Home - Printer Friendly - Translate

Subject: RE: Tune Req: Turlow Carolan's Draught
From: GUEST,Black belt caterpillar wrestler
Date: 08 Jul 09 - 08:28 AM

There is a slight controversy over whether there is a repeated flattened accidental in the B part. Some play it with and some without. I like it with.


Post - Top - Home - Printer Friendly - Translate

Subject: RE: Tune Req: Turlow Carolan's Draught
From: Jim Carroll
Date: 08 Jul 09 - 09:02 AM

"Turlough is pronounced "Ter-luk"
Never heard it pronounced that way around here (W of Ireland) but I'm sure Martin Ryan can put us right when he goes home from the Willie Clancy School.
It's always fascinated me that a turlough is a lake that dries up in summertime.
Jim Carroll


Post - Top - Home - Printer Friendly - Translate

Subject: RE: Tune Req: Turlow Carolan's Draught
From: Paul Burke
Date: 08 Jul 09 - 01:02 PM

They vertainly aren't the Boys of the Low. Every time I've heard it, it's been Tur-lokh as in Khassid.


Post - Top - Home - Printer Friendly - Translate

Subject: RE: Tune Req: Turlow Carolan's Draught
From: Mr Happy
Date: 09 Jul 09 - 11:02 AM

vertainly?

As inin advert ent?


Post - Top - Home - Printer Friendly - Translate
  Share Thread:
More...

Reply to Thread
Subject:  Help
From:
Preview   Automatic Linebreaks   Make a link ("blue clicky")


Mudcat time: 24 June 10:00 AM EDT

[ Home ]

All original material is copyright © 1998 by the Mudcat Café Music Foundation, Inc. All photos, music, images, etc. are copyright © by their rightful owners. Every effort is taken to attribute appropriate copyright to images, content, music, etc. We are not a copyright resource.