Lyrics & Knowledge Personal Pages Record Shop Auction Links Radio & Media Kids Membership Help
The Mudcat Cafesj

Post to this Thread - Sort Descending - Printer Friendly - Home


Chord Req: Go Your Way

Related threads:
Anne Briggs biography? (35)
Need to contact Anne Briggs (6)
Lyr Add: Go Your Way (Anne Briggs) (5)
Lyr Req: Go Your Way (Anne Briggs) (4)
Help: Annie Briggs Suggestions (3)


eechlay 05 Aug 06 - 04:30 AM
The Borchester Echo 05 Aug 06 - 04:52 AM
eechlay 05 Aug 06 - 05:29 AM
Joe Offer 05 Aug 06 - 04:17 PM
Share Thread
more
Lyrics & Knowledge Search [Advanced]
DT  Forum
Sort (Forum) by:relevance date
DT Lyrics:





Subject: Chord Req: Go Your Way
From: eechlay
Date: 05 Aug 06 - 04:30 AM

I see several lyrics threads, but could anyone give me the tab to this one? I know it as sung by Anne Briggs...


Post - Top - Home - Printer Friendly - Translate

Subject: RE: Chord Req: Go Your Way
From: The Borchester Echo
Date: 05 Aug 06 - 04:52 AM

Here is what is supposed to be a transcription of the Bert Jansch recording of Go Your Way My Love. As I believe the song was more or less a joint effort, I suppose Anne Briggs played it sort of the same way. Or maybe not.


Post - Top - Home - Printer Friendly - Translate

Subject: RE: Chord Req: Go Your Way
From: eechlay
Date: 05 Aug 06 - 05:29 AM

On wonderful, thank you...that's very helpful...


Post - Top - Home - Printer Friendly - Translate

Subject: RE: Chord Req: Go Your Way
From: Joe Offer
Date: 05 Aug 06 - 04:17 PM

Let's see if I can post the tab Countess Richard linked to and make it come out right.
Date: Fri, 22 Oct 1999 13:14:32 +0100
From: Nicolas
Subject: j/jansch_bert/go_your_way_my_love.tab

"Go your way my love",   Bert Jansch


Tabbed by Nicolas Menard
Source: tape
Your comments are welcome: nmenard@nordnet.fr
-----------------------------------------

tuning : DADGAd

Symbols: /        - slide up
         *4/5        - play '4' rather loud.
         p        - pull off


-----------------------------------------


d:--------0-----------0--|
A:-----0-----0-----0-----|
G:--2--------------------|
D:--------------0--------| X11
A:-----------------------|
D:--0-----------0--------|


d:-----------0------------0--|--0-----0---------------0-|
A:--------0-----0-----3------|-----3---------------3----|
G:----0------------0---------|--0--------0----4---------|
D:---------------------------|--------------------------|
A:---------------------------|--------------------------|
D:-*4/5------------5---------|--5-------------5---------|
                     Drawing    wat - ter from the


d:--------0-----------0--|--------0-----------0--|
A:-----0-----0-----0-----|-----0-----0-----0-----|
G:--2--------------------|--2--------------------|
D:--------------0--------|--------------0--------|
A:-----------------------|-----------------------|
D:--0-----------0--------|--0-----------0--------|
    well,



d:-----------0------------0---|--0-----0--------------0-|
A:--------0-----0-----3-------|-----3--------------3----|
G:----0------------0----------|--0--------0----4--------|
D:----------------------------|-------------------------|
A:----------------------------|-------------------------|
D:-*4/5------------5----------|--5-------------5--------|
                     spilling    o -    ver on the


d:--------0-----------0--|--------0-----------0-|
A:-----0-----0-----0-----|-----0-----0-----0----|
G:--2--------------------|--2-------------------|
D:--------------0--------|--------------0-------|
A:-----------------------|----------------------|
D:--0-----------0--------|--0-----------0-------|
    grass,



d:-----------0-------------0--|----0-----0--------------0-|
A:--------0-----0-----3-------|-------3--------------3----|
G:----0------------0----------|----0--------0----4--------|
D:----------------------------|---------------------------|
A:----------------------------|---------------------------|
D:-*4/5------------5----------|----5-------------5--------|
                     walking home-ward    my   heart is   


d:--2--2--2--2-----2--2--|        |-0--0--0--0----7--0--|
A:--2--2--2--2-----2--2--|        |-0--0--0--0----0--0--|
G:--4--4--4--4-----4--4--|        |-7--7--7--7----7--7--|
D:--2--2--2--2-----2--2--|        |-0--0--0--0----------| X2
A:--2--2--2--2-----2--2--|        |-0--0--0--0----------|
D:--2--2--2--2-----2--2--|        |---------------------|
fi -   lled         with      pain,



                note1
d:-0--0--0---0-------------|    |-7-----4------5-p-4--|
A:-0--0--0---0-------0-----|    |-0-------------------|
G:-7--7--7-------5------p0-|    |----0---------0------|
D:-0--0--0-----------------|    |-------4----------4--| x2
A:-------------------------|    |---------------------|
D:-------------------------|    |-----------0---------|
            woe -oh oh oh      oh   is me



d:-7-----4-----5-p-4--7-----4-|----------2-|----------2---|
A:-0------------------0-------|----3-------|----3---------|
G:----0--------0---------0----|-0-----0----|-0-----0-----0|
D:-------4--0---------------4-|------------|--------------|
A:----------------------------|----3-------|----3---------|
D:----------------------------|------------|--------------|
                      go your way



d:-------0-----------0--|       |-----5-p-4---7-----4--|
A:----0-----0-----0-----|       |-------------0--------|
G:-2--------------------|       |-----0----------0-----|
D:-------------0--------| X3    |-------------------4--|
A:----------------------|       |-4/5------------------|
D:-0-----------0--------|       |----------------------|
   my    love,                                  go your



d:----------2-|----------2---|    |-------0-----------0|
A:----3-------|----3--------3|    |----0-----0-----0---|
G:-0-----0----|-0-----0------|    |-2------------------|
D:------------|--------------|    |-------------0------| X6
A:----3-------|----3---------|    |--------------------|
D:------------|--------------|    |-0-----------0------|
    way                            my          love


--------------------------------------
note0 : The 'X3', 'X6' and 'x11' 'repeat block'
informations written here, may be different in the next
verses and chorus; ( have a listen to the tape )
but the theme remains the same.


note1

d:-0--0--0---0--------------|           
A:-0--0--0---0-------0------| here, the notes 5-0-p0
G:-7--7--7-------5------p0--| should be played fast.
D:-0--0--0------------------|
A:--------------------------| The space in the notation is
D:--------------------------| for simplicity of writting
            woe -oh oh oh    the lyrics.


note2 : in general, the sound is rather sustained.

---------------------------------------




Post - Top - Home - Printer Friendly - Translate
  Share Thread:
More...

Reply to Thread
Subject:  Help
From:
Preview   Automatic Linebreaks   Make a link ("blue clicky")


Mudcat time: 28 January 2:36 AM EST

[ Home ]

All original material is copyright © 1998 by the Mudcat Café Music Foundation, Inc. All photos, music, images, etc. are copyright © by their rightful owners. Every effort is taken to attribute appropriate copyright to images, content, music, etc. We are not a copyright resource.